电吉他教程

当前位置: 乐器圈 > 电吉他教程 > [电吉他教程] 网友翻译的Mike Livengood 的SOLO教学

[电吉他教程] 网友翻译的Mike Livengood 的SOLO教学

时间:2015-06-27  2015-06-27  电吉他教程  手机阅读
Mike Livengood 的SOLO教学
  bluesme翻译20050828上午于上海
  
  想象我们正在即兴演出,曲子进行到中间时贝司手点头叫你开始solo(国内大师都称之为“华彩”我在译文里统称为“艘楼”以为我拼音输入方便),你怎么办?犹豫就让人家看不起,觉得你太业余,想快,从哪个音符开始呢?和弦变化是怎样?使用什么音阶?造出怎样气氛?我的名字叫啥?晕!晕!晕!
  
  好,现在我来教你怎么才不晕。
  
  艘楼基础
  
  开始之前讲点需要特别注意的如果你还没掌握推弦、滑动、勾弦、敲击等技巧,你学起来可能觉得困难,不过还是可以学。
  
  我个人对5声音阶有些看不起,不过我不是劝你们不使用它或觉得它没用,只是我不想在这里讨论它。
  
  我说现在我们的临时组建的乐队正在热身,和弦进行是简单的Dm-C-Bb-C。
  
  轮到你艘楼了,你怎么办?
  
  基于和弦进行,我选择D minor作为艘楼的主要音开始艘楼
  
  我通常总是没运气想起来围绕主要音所需要的特殊的指板按法,这里是一个我最常用的,并且可以在任何大小
  
  调上使用,这里在Dm位置是这样:
  
  Pattern 1
  E---l---l---l---l-x-l-x-l---l-x-l---l-r-l
  B---l---l---l---l-x-l-R-l---l-x-l---l---l
  G---l---l---l---l-x-l---l-r-l---l---l---l
  D---l---l---l---l-x-l---l-x-l-x-l---l---l
  A---l---l---l---l-r-l---l-x-l-R-l---l---l
  E---l---l---l---l-x-l-x-l---l-x-l---l---l
    1   2   3   4   5   6   7   8   9   10
  
  R代表大调根音(F),r代表小调根音(D)
  
  我猜出你会从技术上称之为F大调音阶的Phrygian形式(从3级音A开始)。我可不这样想,它只是在艘楼时候舒服的可信赖的手指位置,因为我艘楼时注意力集中在音符的大还是小, A Phrygian(看不懂这个的,就别往下看了,你的知识不支持你可以即兴艘楼,先学别的去吧,这是bluesme的劝告)在这里只是巧合。
  
  好了,我们得到了可用的音阶,这个音阶包含了正在使用的和弦的全部音符,像这样:
  
  D minor scale                D-E-F-G-A-Bb-C
  Dm chord                D-F-A
  C chord                        C-E-G
  Bb chord                Bb-D-F
  
  现在我艘楼时(艘楼时你应该记住你是在讲故事中的故事,而不是在堆积licks)可以演奏这个音阶上的任何音符,都和谐,不是都挺好听,但总是和谐的。
  
  这里是这个音阶的另外2个把位
  
  Pattern 2        (F major scale)
  E---l---l-x-l---l-x-l-x-l---l---l---l---l
  B---l---l-r-l---l-x-l-R-l---l---l---l---l
  G---l-x-l-x-l---l-x-l---l---l---l---l---l
  D---l-x-l-R-l---l-x-l---l---l---l---l---l
  A-x-l---l-x-l---l-r-l---l---l---l---l---l
  E-R-l---l-x-l---l-x-l---l---l---l---l---l
    1   2   3   4   5   6   7   8   9   10
  
  Pattern 3        (D minor scale)
  E---l---l---l(x)l---l-x-l-R-l---l-x-l---l
  B---l---l---l(x)l-x-l---l-x-l---l-r-l---l
  G---l---l---l-R-l---l-x-l---l-x-l---l---l
  D---l---l---l-x-l---l-r-l---l-x-l---l---l
  A---l---l---l-x-l---l-x-l-x-l---l---l---l
  E---l---l---l-r-l---l-x-l-R-l---l---l---l
    7   8   9  10  11  12  13  14  15   16
  
  
  (x) 表示你不想换把时可以替代下方弦上的高位音符
  
  注意这是D小调音阶,D小调5声音阶包含于其中。
  
  如果你将样式1、2、3连起来,并从E弦1品的F音开始(样式2),你就可以在24个品上上下游走了(如果你有的话)像这样:
  
  
  E------------------------------------8-10-12--l
  B---------------------------5-6-8/10----------l
  G-------------------2/3-5-7-------------------l
  D-------------2-3-5---------------------------l
  A-------1-3-5---------------------------------l
  E-1-3-5---------------------------------------l
  
  E-13-12-10----------------------------13-15-17/18-l
  B----------13-11-10----------13-15-17-------------l
  G-------------------10-12-14----------------------l
  D-------------------------------------------------l
  A-------------------------------------------------l
  E-------------------------------------------------l
  
  E--20-18-17----------------------------18-20-22/24l
  B-----------20-18-17----------18-20-22------------l
  G--------------------19-17-19---------------------l
  D-------------------------------------------------l
  A-------------------------------------------------l
  E-------------------------------------------------l
  
  试着慢慢地柔和地敲击上行和勾弦下行,在标出的地方滑动,如果你没有高品或累了就停在20品吧。
  
  记住这些样式的好处是她们(我开始想女人了,bluesme的话)只要简单改变位置就可以演奏任何调。样式1从大调音阶的3级音开始(记住!她只是手指样式,不是Phrygian音阶),所以从低音E弦开始点是这样:
  
  C major/A minor                open
  D major/B minor                2nd fret
  E major/C# minor        4th fret
  F major/D minor                5th fret (as above)
  G major/E minor                7th fret
  A major/F# minor        9th fret
  
  在每种样式下我们可以找到些licks帮你丰富你的艘楼,像这样:
  
  
  Dm
  E-----5-6-8-6-5---5-------l-8-----5--8-----5-8-10-l
  B----6---------8-6--8-6-5-l--6---6----6---6-------l
  G---7---------------------l---5-7------5-7--------l
  D-------------------------l-----------------------l
  A-------------------------l-----------------------l
  E-------------------------l-----------------------l
  
  
  E---------------------------5---5-6-5-6-8-6-8/10--l
  B----------5--5-6-5-6-8-6-8---8-------------------l
  G----7-5-7--7-------------------------------------l
  D-------------------------------------------------l
  A-------------------------------------------------l
  E-------------------------------------------------l
  
  同时注意当我们把这些样式放在一起在指板上向上完成大调进行时,和弦也可以成为licks,像这样:
  
  Dm
  E-5--------13-10-----l
  B--6-------------10--l
  G---7----------------l
  D----7---------------l
  A-----5--------------l
  E--------------------l
  
  C
  E-8--------15-12-----l
  B--8-------------13--l
  G---9----------------l
  D----10--------------l
  A-----10-------------l
  E-------8------------l
  
  Bb
  E-10-------13-10-----l
  B--11------------11--l
  G---10---------------l
  D-----8--------------l
  A--------------------l
  E--------------------l
  
  我们艘楼时候可以使用这些和弦的3个音(注意不是3级音,bluesme提醒),以便强调这个和弦,勾击3个音也可以,像"Hotel California"里面一样。
  
  找出一个你喜欢并感到手指舒服、演奏也流畅的样式,弹1000遍,有朋友就让他在旁边弹和弦。
  
  好了,上面是教你开始大小调艘楼,后面是进一步教你艘楼技术。
  
  bluesme也累了,还需要继续翻译吗?我可是8:30起床开始翻译这篇,现在是10:30还没吃东西。
  

「网友翻译的Mike Livengood 的SOLO教学」相关文章

1. [电吉他教程] 网友翻译的Mike Livengood 的SOLO教学

2. [吉他名曲] 网友翻弹指弹曲 mad world

3. [吉他名曲] 网友翻弹春天里-向旭日阳刚致敬

4. [架子鼓谱] GADD的SOLO鼓谱:gadd funk groove 精品收藏分享

5. [长笛谱] 萨克斯长笛乐谱:Goodbye Jimmy Goodbye, 再见,吉米,慢三步

6. [架子鼓谱] GADD的SOLO鼓谱:samba song 高清精品收藏分享

7. [叮咚名曲] 【忧花翻译】未完全翻译 叮咚捉迷藏 dong dong hide and seek

8. [高音笙名曲] 【美德威】杨凯程小高音萨克斯307演奏《Love Never Felt So Good》

9. [架子鼓教程] 架子鼓学习之敲击章章翻译的文章1

10. [架子鼓教程] 架子鼓学习之敲击章章翻译的文章2

本文来源:https://www.yueqiquan.com/a59521.html

点击展开全部
上一篇:[电吉他教程] 是九阴白骨爪还是鸡爪子?关于“Chicken Picking” 下一篇:[电吉他教程] 电吉他学习基础知识之调式音阶解密

「网友翻译的Mike Livengood 的SOLO教学」相关内容

「网友翻译的Mike Livengood 的SOLO教学」相关专题

lb
复制网址 收藏网址 分享到微信 分享到微博 分享到QQ

其它栏目

电吉他教程 电吉他名曲 电吉他谱 电吉他名家 电吉他选购

也许您还喜欢